ISO-10303-21;
HEADER;
FILE_DESCRIPTION (( 'STEP AP214' ),
    '1' );
FILE_NAME ('H10W40-D.STEP',
    '2026-01-14T08:44:28',
    ( '' ),
    ( '' ),
    'SwSTEP 2.0',
    'SolidWorks 2021',
    '' );
FILE_SCHEMA (( 'AUTOMOTIVE_DESIGN' ));
ENDSEC;

DATA;
#1 = DIRECTION ( 'NONE',  ( -1.000000000000000000, 0.000000000000000000, 0.000000000000000000 ) ) ;
#2 = EDGE_CURVE ( 'NONE', #155, #209, #181, .T. ) ;
#3 = FILL_AREA_STYLE_COLOUR ( '', #186 ) ;
#4 = CARTESIAN_POINT ( 'NONE',  ( 0.000000000000000000, 0.000000000000000000, 0.000000000000000000 ) ) ;
#5 = MECHANICAL_DESIGN_GEOMETRIC_PRESENTATION_REPRESENTATION (  '', ( #156 ), #139 ) ;
#6 = ADVANCED_FACE ( 'NONE', ( #158 ), #45, .F. ) ;
#7 = ORIENTED_EDGE ( 'NONE', *, *, #192, .T. ) ;
#8 = CIRCLE ( 'NONE', #160, 12.90000000000000213 ) ;
#9 = SURFACE_STYLE_USAGE ( .BOTH. , #13 ) ;
#10 = EDGE_LOOP ( 'NONE', ( #95, #82 ) ) ;
#11 = AXIS2_PLACEMENT_3D ( 'NONE', #130, #135, #171 ) ;
#12 = DIRECTION ( 'NONE',  ( 0.000000000000000000, 0.000000000000000000, 1.000000000000000000 ) ) ;
#13 = SURFACE_SIDE_STYLE ('',( #141 ) ) ;
#14 = VERTEX_POINT ( 'NONE', #65 ) ;
#15 = AXIS2_PLACEMENT_3D ( 'NONE', #183, #41, #199 ) ;
#16 = DIRECTION ( 'NONE',  ( -0.000000000000000000, -0.000000000000000000, -1.000000000000000000 ) ) ;
#17 = DIRECTION ( 'NONE',  ( 0.000000000000000000, 0.000000000000000000, 1.000000000000000000 ) ) ;
#18 = LINE ( 'NONE', #106, #98 ) ;
#19 = CIRCLE ( 'NONE', #69, 14.90000000000000036 ) ;
#20 = CIRCLE ( 'NONE', #15, 14.90000000000000036 ) ;
#21 = CARTESIAN_POINT ( 'NONE',  ( 0.000000000000000000, 0.000000000000000000, 0.000000000000000000 ) ) ;
#22 =( NAMED_UNIT ( * ) SI_UNIT ( $, .STERADIAN. ) SOLID_ANGLE_UNIT ( ) );
#23 = DIRECTION ( 'NONE',  ( -1.000000000000000000, 0.000000000000000000, 0.000000000000000000 ) ) ;
#24 = PRESENTATION_LAYER_ASSIGNMENT (  '', '', ( #163 ) ) ;
#25 = APPLICATION_CONTEXT ( 'automotive_design' ) ;
#26 = ORIENTED_EDGE ( 'NONE', *, *, #110, .F. ) ;
#27 = AXIS2_PLACEMENT_3D ( 'NONE', #80, #34, #116 ) ;
#28 =( LENGTH_UNIT ( ) NAMED_UNIT ( * ) SI_UNIT ( .MILLI., .METRE. ) );
#29 = ORIENTED_EDGE ( 'NONE', *, *, #92, .F. ) ;
#30 = EDGE_CURVE ( 'NONE', #209, #155, #97, .T. ) ;
#31 = FILL_AREA_STYLE ('',( #188 ) ) ;
#32 = ORIENTED_EDGE ( 'NONE', *, *, #78, .F. ) ;
#33 = CARTESIAN_POINT ( 'NONE',  ( 0.000000000000000000, 0.000000000000000000, 4000.000000000000000 ) ) ;
#34 = DIRECTION ( 'NONE',  ( 0.000000000000000000, 0.000000000000000000, 1.000000000000000000 ) ) ;
#35 = DIRECTION ( 'NONE',  ( 0.000000000000000000, 0.000000000000000000, 1.000000000000000000 ) ) ;
#36 = EDGE_CURVE ( 'NONE', #174, #14, #66, .T. ) ;
#37 = FACE_OUTER_BOUND ( 'NONE', #204, .T. ) ;
#38 = AXIS2_PLACEMENT_3D ( 'NONE', #72, #210, #71 ) ;
#39 = FACE_OUTER_BOUND ( 'NONE', #175, .T. ) ;
#40 = CIRCLE ( 'NONE', #11, 14.90000000000000036 ) ;
#41 = DIRECTION ( 'NONE',  ( 0.000000000000000000, 0.000000000000000000, 1.000000000000000000 ) ) ;
#42 = DIRECTION ( 'NONE',  ( 0.000000000000000000, 0.000000000000000000, 1.000000000000000000 ) ) ;
#43 = EDGE_CURVE ( 'NONE', #100, #14, #19, .T. ) ;
#44 = UNCERTAINTY_MEASURE_WITH_UNIT (LENGTH_MEASURE( 1.000000000000000082E-05 ), #154, 'distance_accuracy_value', 'NONE');
#45 = CYLINDRICAL_SURFACE ( 'NONE', #212, 12.90000000000000213 ) ;
#46 = ORIENTED_EDGE ( 'NONE', *, *, #164, .T. ) ;
#47 = DIRECTION ( 'NONE',  ( -1.000000000000000000, 0.000000000000000000, 0.000000000000000000 ) ) ;
#48 = ORIENTED_EDGE ( 'NONE', *, *, #2, .T. ) ;
#49 = DIRECTION ( 'NONE',  ( -0.000000000000000000, -0.000000000000000000, -1.000000000000000000 ) ) ;
#50 = EDGE_CURVE ( 'NONE', #140, #64, #8, .T. ) ;
#51 = LINE ( 'NONE', #67, #213 ) ;
#52 = CYLINDRICAL_SURFACE ( 'NONE', #104, 14.90000000000000036 ) ;
#53 = DIRECTION ( 'NONE',  ( 0.000000000000000000, 0.000000000000000000, 1.000000000000000000 ) ) ;
#54 = DIRECTION ( 'NONE',  ( -0.000000000000000000, -0.000000000000000000, -1.000000000000000000 ) ) ;
#55 = UNCERTAINTY_MEASURE_WITH_UNIT (LENGTH_MEASURE( 1.000000000000000082E-05 ), #123, 'distance_accuracy_value', 'NONE');
#56 = SURFACE_STYLE_USAGE ( .BOTH. , #57 ) ;
#57 = SURFACE_SIDE_STYLE ('',( #201 ) ) ;
#58 = ADVANCED_FACE ( 'NONE', ( #194, #145 ), #85, .T. ) ;
#59 = PRODUCT_CONTEXT ( 'NONE', #200, 'mechanical' ) ;
#60 = EDGE_LOOP ( 'NONE', ( #190, #46 ) ) ;
#61 = PRODUCT_DEFINITION_CONTEXT ( 'detailed design', #25, 'design' ) ;
#62 = EDGE_LOOP ( 'NONE', ( #128, #176, #26, #32 ) ) ;
#63 =( NAMED_UNIT ( * ) SI_UNIT ( $, .STERADIAN. ) SOLID_ANGLE_UNIT ( ) );
#64 = VERTEX_POINT ( 'NONE', #152 ) ;
#65 = CARTESIAN_POINT ( 'NONE',  ( 14.90000000000000036, 1.824723730729556232E-15, 0.000000000000000000 ) ) ;
#66 = LINE ( 'NONE', #180, #202 ) ;
#67 = CARTESIAN_POINT ( 'NONE',  ( -14.90000000000000036, 0.000000000000000000, 4000.000000000000000 ) ) ;
#68 = FACE_OUTER_BOUND ( 'NONE', #62, .T. ) ;
#69 = AXIS2_PLACEMENT_3D ( 'NONE', #21, #118, #178 ) ;
#70 = COLOUR_RGB ( '',0.7921568627450980005, 0.8196078431372548767, 0.9333333333333333481 ) ;
#71 = DIRECTION ( 'NONE',  ( 1.000000000000000000, 0.000000000000000000, 0.000000000000000000 ) ) ;
#72 = CARTESIAN_POINT ( 'NONE',  ( 0.000000000000000000, 0.000000000000000000, 0.000000000000000000 ) ) ;
#73 = CARTESIAN_POINT ( 'NONE',  ( 0.000000000000000000, 0.000000000000000000, 4000.000000000000000 ) ) ;
#74 = AXIS2_PLACEMENT_3D ( 'NONE', #4, #197, #75 ) ;
#75 = DIRECTION ( 'NONE',  ( 1.000000000000000000, 0.000000000000000000, 0.000000000000000000 ) ) ;
#76 = ADVANCED_BREP_SHAPE_REPRESENTATION ( 'H10W40-D', ( #170, #125 ), #144 ) ;
#77 = FILL_AREA_STYLE ('',( #3 ) ) ;
#78 = EDGE_CURVE ( 'NONE', #209, #64, #18, .T. ) ;
#79 =( NAMED_UNIT ( * ) SI_UNIT ( $, .STERADIAN. ) SOLID_ANGLE_UNIT ( ) );
#80 = CARTESIAN_POINT ( 'NONE',  ( 0.000000000000000000, 0.000000000000000000, 4000.000000000000000 ) ) ;
#81 = DIRECTION ( 'NONE',  ( 1.000000000000000000, 0.000000000000000000, 0.000000000000000000 ) ) ;
#82 = ORIENTED_EDGE ( 'NONE', *, *, #2, .F. ) ;
#83 = ORIENTED_EDGE ( 'NONE', *, *, #192, .F. ) ;
#84 = AXIS2_PLACEMENT_3D ( 'NONE', #115, #53, #195 ) ;
#85 = PLANE ( 'NONE',  #182 ) ;
#86 = CLOSED_SHELL ( 'NONE', ( #150, #108, #58, #134, #6, #184 ) ) ;
#87 = CARTESIAN_POINT ( 'NONE',  ( 0.000000000000000000, 0.000000000000000000, 4000.000000000000000 ) ) ;
#88 = CARTESIAN_POINT ( 'NONE',  ( -14.90000000000000036, 0.000000000000000000, 4000.000000000000000 ) ) ;
#89 = AXIS2_PLACEMENT_3D ( 'NONE', #126, #12, #81 ) ;
#90 =( NAMED_UNIT ( * ) PLANE_ANGLE_UNIT ( ) SI_UNIT ( $, .RADIAN. ) );
#91 = ORIENTED_EDGE ( 'NONE', *, *, #43, .T. ) ;
#92 = EDGE_CURVE ( 'NONE', #101, #100, #51, .T. ) ;
#93 = APPLICATION_PROTOCOL_DEFINITION ( 'draft international standard', 'automotive_design', 1998, #25 ) ;
#94 =( GEOMETRIC_REPRESENTATION_CONTEXT ( 3 ) GLOBAL_UNCERTAINTY_ASSIGNED_CONTEXT ( ( #55 ) ) GLOBAL_UNIT_ASSIGNED_CONTEXT ( ( #123, #90, #22 ) ) REPRESENTATION_CONTEXT ( 'NONE', 'WORKASPACE' ) );
#95 = ORIENTED_EDGE ( 'NONE', *, *, #30, .F. ) ;
#96 = ORIENTED_EDGE ( 'NONE', *, *, #164, .F. ) ;
#97 = CIRCLE ( 'NONE', #27, 12.90000000000000213 ) ;
#98 = VECTOR ( 'NONE', #132, 1000.000000000000000 ) ;
#99 = MECHANICAL_DESIGN_GEOMETRIC_PRESENTATION_REPRESENTATION (  '', ( #163 ), #94 ) ;
#100 = VERTEX_POINT ( 'NONE', #146 ) ;
#101 = VERTEX_POINT ( 'NONE', #88 ) ;
#102 = EDGE_CURVE ( 'NONE', #155, #140, #211, .T. ) ;
#103 = DIRECTION ( 'NONE',  ( -1.000000000000000000, 0.000000000000000000, 0.000000000000000000 ) ) ;
#104 = AXIS2_PLACEMENT_3D ( 'NONE', #33, #16, #103 ) ;
#105 = CARTESIAN_POINT ( 'NONE',  ( 0.000000000000000000, 0.000000000000000000, 0.000000000000000000 ) ) ;
#106 = CARTESIAN_POINT ( 'NONE',  ( -12.90000000000000213, 0.000000000000000000, 4000.000000000000000 ) ) ;
#107 = PRODUCT_DEFINITION_SHAPE ( 'NONE', 'NONE',  #120 ) ;
#108 = ADVANCED_FACE ( 'NONE', ( #68 ), #147, .F. ) ;
#109 = CIRCLE ( 'NONE', #38, 12.90000000000000213 ) ;
#110 = EDGE_CURVE ( 'NONE', #64, #140, #109, .T. ) ;
#111 = DIRECTION ( 'NONE',  ( 1.000000000000000000, 0.000000000000000000, 0.000000000000000000 ) ) ;
#112 = PRESENTATION_LAYER_ASSIGNMENT (  '', '', ( #156 ) ) ;
#113 = ORIENTED_EDGE ( 'NONE', *, *, #50, .T. ) ;
#114 = EDGE_LOOP ( 'NONE', ( #208, #83 ) ) ;
#115 = CARTESIAN_POINT ( 'NONE',  ( 0.000000000000000000, 0.000000000000000000, 0.000000000000000000 ) ) ;
#116 = DIRECTION ( 'NONE',  ( 1.000000000000000000, 0.000000000000000000, 0.000000000000000000 ) ) ;
#117 = DIRECTION ( 'NONE',  ( -0.000000000000000000, -0.000000000000000000, -1.000000000000000000 ) ) ;
#118 = DIRECTION ( 'NONE',  ( 0.000000000000000000, 0.000000000000000000, 1.000000000000000000 ) ) ;
#119 = CARTESIAN_POINT ( 'NONE',  ( 0.000000000000000000, 0.000000000000000000, 4000.000000000000000 ) ) ;
#120 = PRODUCT_DEFINITION ( 'UNKNOWN', '', #172, #61 ) ;
#121 = PRESENTATION_STYLE_ASSIGNMENT (( #56 ) ) ;
#122 = VECTOR ( 'NONE', #117, 1000.000000000000000 ) ;
#123 =( LENGTH_UNIT ( ) NAMED_UNIT ( * ) SI_UNIT ( .MILLI., .METRE. ) );
#124 = SHAPE_DEFINITION_REPRESENTATION ( #107, #76 ) ;
#125 = AXIS2_PLACEMENT_3D ( 'NONE', #185, #42, #111 ) ;
#126 = CARTESIAN_POINT ( 'NONE',  ( 0.000000000000000000, 0.000000000000000000, 4000.000000000000000 ) ) ;
#127 = ORIENTED_EDGE ( 'NONE', *, *, #36, .F. ) ;
#128 = ORIENTED_EDGE ( 'NONE', *, *, #30, .T. ) ;
#129 = ORIENTED_EDGE ( 'NONE', *, *, #36, .T. ) ;
#130 = CARTESIAN_POINT ( 'NONE',  ( 0.000000000000000000, 0.000000000000000000, 4000.000000000000000 ) ) ;
#131 = PLANE ( 'NONE',  #84 ) ;
#132 = DIRECTION ( 'NONE',  ( -0.000000000000000000, -0.000000000000000000, -1.000000000000000000 ) ) ;
#133 = FACE_BOUND ( 'NONE', #161, .T. ) ;
#134 = ADVANCED_FACE ( 'NONE', ( #193, #133 ), #131, .F. ) ;
#135 = DIRECTION ( 'NONE',  ( 0.000000000000000000, 0.000000000000000000, 1.000000000000000000 ) ) ;
#136 = UNCERTAINTY_MEASURE_WITH_UNIT (LENGTH_MEASURE( 1.000000000000000082E-05 ), #28, 'distance_accuracy_value', 'NONE');
#137 = AXIS2_PLACEMENT_3D ( 'NONE', #73, #54, #23 ) ;
#138 = DIRECTION ( 'NONE',  ( -0.000000000000000000, -0.000000000000000000, -1.000000000000000000 ) ) ;
#139 =( GEOMETRIC_REPRESENTATION_CONTEXT ( 3 ) GLOBAL_UNCERTAINTY_ASSIGNED_CONTEXT ( ( #136 ) ) GLOBAL_UNIT_ASSIGNED_CONTEXT ( ( #28, #173, #79 ) ) REPRESENTATION_CONTEXT ( 'NONE', 'WORKASPACE' ) );
#140 = VERTEX_POINT ( 'NONE', #179 ) ;
#141 = SURFACE_STYLE_FILL_AREA ( #31 ) ;
#142 = ORIENTED_EDGE ( 'NONE', *, *, #177, .F. ) ;
#143 = CARTESIAN_POINT ( 'NONE',  ( 0.000000000000000000, 0.000000000000000000, 4000.000000000000000 ) ) ;
#144 =( GEOMETRIC_REPRESENTATION_CONTEXT ( 3 ) GLOBAL_UNCERTAINTY_ASSIGNED_CONTEXT ( ( #44 ) ) GLOBAL_UNIT_ASSIGNED_CONTEXT ( ( #154, #207, #63 ) ) REPRESENTATION_CONTEXT ( 'NONE', 'WORKASPACE' ) );
#145 = FACE_BOUND ( 'NONE', #10, .T. ) ;
#146 = CARTESIAN_POINT ( 'NONE',  ( -14.90000000000000036, 0.000000000000000000, 0.000000000000000000 ) ) ;
#147 = CYLINDRICAL_SURFACE ( 'NONE', #148, 12.90000000000000213 ) ;
#148 = AXIS2_PLACEMENT_3D ( 'NONE', #87, #151, #1 ) ;
#149 = CIRCLE ( 'NONE', #74, 14.90000000000000036 ) ;
#150 = ADVANCED_FACE ( 'NONE', ( #37 ), #52, .T. ) ;
#151 = DIRECTION ( 'NONE',  ( -0.000000000000000000, -0.000000000000000000, -1.000000000000000000 ) ) ;
#152 = CARTESIAN_POINT ( 'NONE',  ( -12.90000000000000213, 0.000000000000000000, 0.000000000000000000 ) ) ;
#153 = CYLINDRICAL_SURFACE ( 'NONE', #137, 14.90000000000000036 ) ;
#154 =( LENGTH_UNIT ( ) NAMED_UNIT ( * ) SI_UNIT ( .MILLI., .METRE. ) );
#155 = VERTEX_POINT ( 'NONE', #165 ) ;
#156 = STYLED_ITEM ( 'NONE', ( #205 ), #76 ) ;
#157 = PRODUCT_RELATED_PRODUCT_CATEGORY ( 'part', '', ( #196 ) ) ;
#158 = FACE_OUTER_BOUND ( 'NONE', #187, .T. ) ;
#159 = ORIENTED_EDGE ( 'NONE', *, *, #110, .T. ) ;
#160 = AXIS2_PLACEMENT_3D ( 'NONE', #105, #17, #166 ) ;
#161 = EDGE_LOOP ( 'NONE', ( #159, #113 ) ) ;
#162 = ORIENTED_EDGE ( 'NONE', *, *, #92, .T. ) ;
#163 = STYLED_ITEM ( 'NONE', ( #121 ), #170 ) ;
#164 = EDGE_CURVE ( 'NONE', #174, #101, #40, .T. ) ;
#165 = CARTESIAN_POINT ( 'NONE',  ( 12.90000000000000213, 1.579794370900085936E-15, 4000.000000000000000 ) ) ;
#166 = DIRECTION ( 'NONE',  ( 1.000000000000000000, 0.000000000000000000, 0.000000000000000000 ) ) ;
#167 = CARTESIAN_POINT ( 'NONE',  ( 12.90000000000000213, 1.579794370900085936E-15, 4000.000000000000000 ) ) ;
#168 = DIRECTION ( 'NONE',  ( 1.000000000000000000, 0.000000000000000000, -0.000000000000000000 ) ) ;
#169 = CARTESIAN_POINT ( 'NONE',  ( 14.90000000000000036, 1.824723730729556232E-15, 4000.000000000000000 ) ) ;
#170 = MANIFOLD_SOLID_BREP ( 'Áîáûøêà-Âûòÿíóòü2', #86 ) ;
#171 = DIRECTION ( 'NONE',  ( 1.000000000000000000, 0.000000000000000000, 0.000000000000000000 ) ) ;
#172 = PRODUCT_DEFINITION_FORMATION_WITH_SPECIFIED_SOURCE ( 'ANY', '', #196, .NOT_KNOWN. ) ;
#173 =( NAMED_UNIT ( * ) PLANE_ANGLE_UNIT ( ) SI_UNIT ( $, .RADIAN. ) );
#174 = VERTEX_POINT ( 'NONE', #169 ) ;
#175 = EDGE_LOOP ( 'NONE', ( #127, #142, #162, #91 ) ) ;
#176 = ORIENTED_EDGE ( 'NONE', *, *, #102, .T. ) ;
#177 = EDGE_CURVE ( 'NONE', #101, #174, #20, .T. ) ;
#178 = DIRECTION ( 'NONE',  ( 1.000000000000000000, 0.000000000000000000, 0.000000000000000000 ) ) ;
#179 = CARTESIAN_POINT ( 'NONE',  ( 12.90000000000000213, 1.579794370900085936E-15, 0.000000000000000000 ) ) ;
#180 = CARTESIAN_POINT ( 'NONE',  ( 14.90000000000000036, 1.824723730729556232E-15, 4000.000000000000000 ) ) ;
#181 = CIRCLE ( 'NONE', #89, 12.90000000000000213 ) ;
#182 = AXIS2_PLACEMENT_3D ( 'NONE', #119, #35, #168 ) ;
#183 = CARTESIAN_POINT ( 'NONE',  ( 0.000000000000000000, 0.000000000000000000, 4000.000000000000000 ) ) ;
#184 = ADVANCED_FACE ( 'NONE', ( #39 ), #153, .T. ) ;
#185 = CARTESIAN_POINT ( 'NONE',  ( 0.000000000000000000, 0.000000000000000000, 0.000000000000000000 ) ) ;
#186 = COLOUR_RGB ( '',0.7921568627450980005, 0.8196078431372548767, 0.9333333333333333481 ) ;
#187 = EDGE_LOOP ( 'NONE', ( #206, #48, #189, #191 ) ) ;
#188 = FILL_AREA_STYLE_COLOUR ( '', #70 ) ;
#189 = ORIENTED_EDGE ( 'NONE', *, *, #78, .T. ) ;
#190 = ORIENTED_EDGE ( 'NONE', *, *, #177, .T. ) ;
#191 = ORIENTED_EDGE ( 'NONE', *, *, #50, .F. ) ;
#192 = EDGE_CURVE ( 'NONE', #14, #100, #149, .T. ) ;
#193 = FACE_OUTER_BOUND ( 'NONE', #114, .T. ) ;
#194 = FACE_OUTER_BOUND ( 'NONE', #60, .T. ) ;
#195 = DIRECTION ( 'NONE',  ( 1.000000000000000000, 0.000000000000000000, -0.000000000000000000 ) ) ;
#196 = PRODUCT ( 'H10W40-D', 'H10W40-D', '', ( #59 ) ) ;
#197 = DIRECTION ( 'NONE',  ( 0.000000000000000000, 0.000000000000000000, 1.000000000000000000 ) ) ;
#198 = CARTESIAN_POINT ( 'NONE',  ( -12.90000000000000213, 0.000000000000000000, 4000.000000000000000 ) ) ;
#199 = DIRECTION ( 'NONE',  ( 1.000000000000000000, 0.000000000000000000, 0.000000000000000000 ) ) ;
#200 = APPLICATION_CONTEXT ( 'automotive_design' ) ;
#201 = SURFACE_STYLE_FILL_AREA ( #77 ) ;
#202 = VECTOR ( 'NONE', #214, 1000.000000000000000 ) ;
#203 = APPLICATION_PROTOCOL_DEFINITION ( 'draft international standard', 'automotive_design', 1998, #200 ) ;
#204 = EDGE_LOOP ( 'NONE', ( #96, #129, #7, #29 ) ) ;
#205 = PRESENTATION_STYLE_ASSIGNMENT (( #9 ) ) ;
#206 = ORIENTED_EDGE ( 'NONE', *, *, #102, .F. ) ;
#207 =( NAMED_UNIT ( * ) PLANE_ANGLE_UNIT ( ) SI_UNIT ( $, .RADIAN. ) );
#208 = ORIENTED_EDGE ( 'NONE', *, *, #43, .F. ) ;
#209 = VERTEX_POINT ( 'NONE', #198 ) ;
#210 = DIRECTION ( 'NONE',  ( 0.000000000000000000, 0.000000000000000000, 1.000000000000000000 ) ) ;
#211 = LINE ( 'NONE', #167, #122 ) ;
#212 = AXIS2_PLACEMENT_3D ( 'NONE', #143, #138, #47 ) ;
#213 = VECTOR ( 'NONE', #49, 1000.000000000000000 ) ;
#214 = DIRECTION ( 'NONE',  ( -0.000000000000000000, -0.000000000000000000, -1.000000000000000000 ) ) ;
ENDSEC;
END-ISO-10303-21;
